Форум школы №2

Информация о пользователе

Привет, Гость! Войдите или зарегистрируйтесь.


Вы здесь » Форум школы №2 » Музыка. » Аккорды для всех!!!!


Аккорды для всех!!!!

Сообщений 1 страница 27 из 27

1

В этой теме выкладываем любые аккорды на ВСЕ жанры!!! Сообщения типа "реп гавно" и "панки здохли" будут удаляться!

0

2

Итак первые песни напоминают нам о Котенко:

Звезда по имени Солнце

Вступление:

Вариант 1:

Dm7'                                             
e-|5-5-5-8|5-5-5-8|5-5-5-8|5-5-5-8|-
b-|6-5-6-6|6-5-6-6|6-5-6-6|6-5-6-6|-
g-|5-5-5-5|5-5-5-5|5-5-5-5|5-5-5-5|-
d-|7-7-7-7|7-7-7-7|7-7-7-7|7-7-7-7|-
---
Вариант 2:

e|--------8------8------8--
b|---6-5---6-5----6-5------
g|-------------------------
d|-7-----------------------
a|-------------------------
e|-------------------------
---
Вариант 3:

Dm7  Am Dm7(1)Dm7
1-8- -5- -5- -8-
2-6- -5- -6- -6-
3-5- -5- -5- -5-
4-7- -7- -7- -7-
5-5- --- -5- -5-
6--- --- --- --- 

---

Am                               C
  Белый снег, серый лед, на растрескавшейся земле.
     Dm                      G
  Одеялом лоскутным на ней, город в дорожной петле.
         Am                          C
  А над городом плывут облака, закрывая небесный свет.
         Dm                    G
  А над городом - желтый дым, городу две тысячи лет,
    Dm                                 Am    /Dm/
  Прожитых под светом Звезды по имени Солнце.

         Am                     C
  И две тысячи лет - война, война без особых причин.
      Dm                   G
  Война - дело молодых, лекарство против морщин.
    Am                            C
  Красная, красная кровь - через час уже просто земля,
          Dm                              G
  Через два на ней цветы и трава, через три она снова жива
        Dm                          Am    /Dm Am Dm/
  И согрета лучами Звезды по имени Солнце.

         Am                                 C
  И мы знаем, что так было всегда, что Судьбою больше любим,
         Dm                        G
  Кто живет по законам другим и кому умирать молодым.
         Am           
  Он не помнит слова «да» и слова «нет»,
         C
  Он не помнит ни чинов, ни имен
        Dm
  И способен дотянуться до звезд,
         G
  Не считая, что это сон,
      Dm                               Am    /Dm Am/
  И упасть опаленным Звездой по имени Солнце.

0

3

КИНО - Мама Анархия

(Пародия на группу "Sex Pistols")

C
Солдат шел по улице домой
F       G       C
И увидел этих ребят.
C
"Кто ваша мама, ребята?" -
F       G         C
Спросил у ребят солдат.

         Am      Em
        Мама - Анархия,
          F      G
        Папа - стакан портвейна.

Все они в кожаных куртках,
Все небольшого роста,
Хотел солдат пройти мимо,
Но это было непросто.

        Мама - Анархия,
        Папа - стакан портвейна.

Довольно веселую шутку
Сыграли с солдатом ребята:
Раскрасили красным и синим,
Заставляли ругаться матом.

        Мама - Анархия,
        Папа - стакан портвейна.

0

4

Мама- Артёмия
Папа- Боряния....:) славная поездка была...

0

5

Гражданская Оборона - Все идет по плану

    Am    F       C          E
Границы ключ переломлен пополам,
А наш батюшка Ленин совсем усоп.
Он разложился на плесень и на липовый мед,
А перестройка все идет, идет по плану.
А вся грязь превратилась в голый лед,
И все идет по плану.

А моя судьба захотела на покой,
Я обещал ей не участвовать в военной игре.
Но на фуражке на моей серп и молот и звезда.
Как это трогательно - серп и молот и звезда.
Лихой фонарь ожидания мотается,
И все идет по плану.

А моей женой накормили толпу,
Мировым кулаком растоптали ей грудь.
Всенародной свободой разорвали ей плоть.
Так закопайте ее во Христе,
Ведь все пойдет по плану.

Лишь один дедушка Ленин хороший был вождь,
А все другие остальные - такое дерьмо,
А все другие - враги и такие дураки.
Над родною над отчизной бесноват из них шел.
Я купил журнал "Корея" - там тоже хорошо.
Там товарищ Ким Ир Сен - там тоже, что у нас.
Я уверен, что у них тоже самое,
И все идет по плану.

А при коммунизме все будет за***сь,
Он наступит скоро, надо только подождать.
Там все будет бесплатно, там все будет в кайф.
Там наверное вообще не надо будет умирать.
Я проснулся среди ночи, и понял что
Все (Пауза...) Все идет по плану.

0

6

Кипелов - Я свободен

Hm
Надо мною - тишина,
     C(III)     Hm
Небо, полное дождя,
        C(III)          Hm
Дождь проходит сквозь меня,
         A
Но боли больше нет.

Hm
Под холодный шепот звезд
      C(III)        Hm
Мы сожгли последний мост,
       C(III)       Hm
И все в бездну сорвалось,
            A
Свободным стану я
        G(III)
От зла и от добра,
       F#                Hm
Моя душа была на лезвии ножа.

Проигрыш:
Hm A F#m Hm

Я бы мог с тобою быть,
Я бы мог про все забыть,
Я бы мог тебя любить,
Но это лишь игра.
В шуме ветра за спиной

Я услышу голос твой,
И о той любви земной,
Что нас сжигала в прах,
И я сходил с ума...
В моей душе нет больше места для тебя!

Hm         A        F#m         Hm
Я свободен, словно птица в небесах,
Я свободен, я забыл, что значит страх.
Я свободен - с диким ветром наравне,
Я свободен наяву, а не во сне!

Надо мною - тишина,
Небо, полное огня,
Свет проходит сквозь меня,
И я свободен вновь.
Я свободен от любви,
От вражды и от молвы,
От предсказанной судьбы
И от земных оков,
От зла и от добра...
В моей душе нет больше места для тебя!

Я свободен, словно птица в небесах,
Я свободен, я забыл, что значит страх.
Я свободен - с диким ветром наравне,
Я свободен наяву, а не во сне!

0

7

Сектор газа - Сельский туалет

Вступление: C#m

D#
Она сидела на очке и кругозор свой повышала,
И, читая, не заметила, что балка затрещала под ней,
Но тетка увлеклась романом, она, дергаясь, читала,
C#m
От вибрации такой доска держаться перестала.

И настал момент ужасный, что доска блядь вся прогнулась,
Затрещала, проломилась, баба с шумом пизданулась
Прям в дерьмо, башкою вниз - вот такой судьбы каприз -
Лишь ноги из дерьма торчали, бабу круто обломали.

C#m
Туалет! - И лучше кайфа нет,
Чем новый туалет: стоит в саду сверкает, отражая солнца свет,
Сельский туалет! - И лучше кайфа нет,
Стоит в саду сверкает, отражая солнца свет.

0

8

Чиж и Ко - Фантом

Am         E          Am
Я бегу по выжженой земле,
Am           C      G    E7
Гермошлем захлопнув на ходу.
Am               F          Dm           F
Мой "фантом" стрелою белой, на распластанном крыле,
   Am        E        Am
С ревом набирает высоту.
Мой "фантом" стрелою белой на распластанном крыле
С ревом набирает высоту

Вижу голубеющую даль
Нарушать такую просто жаль
Жаль, что ты ее не видишь, путь мой труден и далек
Мой "фантом" несется на восток

Делаю я левый поворот
Я теперь палач, а не пилот
Нагибаюсь над прицелом, и ракеты мчатся к цели
Делаю еще один заход

Вижу в небе белую черту
Мой "фантом" теряет высоту
Катапульта - вот спасенье, и на стропах натяженья
Сердце в пятки - в штопор я иду

Только приземлился - в тот же миг
Из кустов раздался дикий крик
Желтолицые вьетнамцы верещат в кустах, как зайцы
Я упал на землю и затих

"Кто же тот пилот, что меня сбил?" -
Одного вьетнамца я спросил
Отвечал мне тот раскосый, что командовал допросом:
"Сбил тебя наш летчик ЛиСиЦын"

Это вы, вьетнамцы, врете зря
В шлемофоне четко слышал я:
"Коля, жми, а я накрою!"
"Ваня, бей, а я прикрою!"
Русский ас Иван подбил меня

Где-то там вдали родной Техас
Дома ждут меня отец и мать
Мой "фантом" взорвался быстро в небе голубом и чистом
Мне теперь вас больше не видать

0

9

Metallica - Nothing else matters

6/8 time
E|-------0-----|-------0-----|-------0-----|-------0---7-------|
B|-----0---0---|-----0---0---|-----0---0---|-----0---0---------|
G|---0-------0-|---0-------0-|---0-------0-|---0---------------|
D|-------------|-------------|-------------|-------------------|
A|-------------|-------------|-------------|-------------------|
E|-0-----------|-0-----------|-0-----------|-0-----------------|
   P           (9/8 time)        Н P S       S P
E|-7-----------7^0---------|---------7---8---7^8^7\5-7---5\2^0-|
B|-----0-----------0-------|---------0---0-----------0---------|
G|---------0-----------0---|-----0-----------------------------|
D|-------------------------|-----------------------------------|
A|-------------------------|-----------------------------------|
E|-0-----------------------|-0---------------------------------|
                P
E|-------------2^0---------|-------------0---0---0-------------|
B|-5-------5-------5-------|---------5-------5---5-------------|
G|-----5---------------5---|-----5-----------5---5-------------|
D|-------------------------|-----------------------------------|
A|-0-----------------------|-0---------------0---2-------------|
E|-------------------------|-----------------------------------|
                P                         Н P   P   Н
E|-0-----------3^0-----0---|-0-----------0^5^0-----------------|
B|-5-------5-------5---5---|-7-------7---------7^0-0^5---------|
G|-5-----5---5-------5-5---|-7-----7---7-----------------------|
D|-------------------------|-----------------------------------|
A|-3---3---------------3---|-5---5-----------------------------|
E|-------------------------|-----------------------------------|
    <.NH.>
E|-------12----|-------0-----|-------0-----|-------0-----------|
B|-----12--0---|-----0---0---|-----0---0---|-----0---0---------|
G|---12------0-|---0-------0-|---0-------0-|---0-------0-------|
D|-------------|-------------|-------------|-------------------|
A|-------------|-------------|-------------|-------------------|
E|-0-----------|-0-----------|-0-----------|-0-----------------|

E|-------------7-----------|-------------|-------------7-------|
B|-------------8-----------|-----7-----5-|-------------8-------|
G|-----------9-------------|-----7-----5-|-----------9---------|
D|---------9---------------|---7-----5---|---------9-----------|
A|-------7-----------------|-5-----3-----|-------7-------------|
E|-0-----------------------|-------------|-0-------------------|

E|-------------|-------------7-------|-----5-----------3-----|
B|-----7-----5-|-------------8-------|-------7-----------5---|
G|-----7-----5-|---------9-----------|---------7-----------5-|
D|---7-----5---|-----------9---------|-----7-----------5-----|
A|-5-----3-----|-------7-------------|-5-----------3---------|
E|-------------|-0-------------------|-----------------------|

E|-----3-----------2-------|-------0-----|-------0-----|
B|-------3-----------4-----|-----0---0---|-----0---0---|
G|---------4-----------2---|---0-------0-|---0-------0-|
D|-----5-----------4-------|-------------|-------------|
A|-------------2-----------|-------------|-------------|
E|-3-----------------------|-0-----------|-0-----------|

Main guitar part:
E|-------------3-----0-----|-2-----3-----0-----------|
B|---------0-----------0---|---------3-------3-------|
G|-----0-----------0-----0-|-----------0-------0-----|
D|-------------------------|-0-----------------------|
A|-------------------------|-------------3-----------|
E|-0-----------------------|---------------------3-2-|

E|-------------3-----0-----|-2-----------------------|
B|---------0-----------0---|-------3-----3-----------|
G|-----0-----------0-----0-|---------2-------0-------|
D|-------------------------|-0-----------------------|
A|-------------------------|-------------3-----------|
E|-0-----------------------|---------------------3-2-|

E|-------------3-----0-----|-2-----3-----3---------|
B|---------0-----------0---|---------3-------3-----|
G|-----0-----------0-----0-|-----------0---------0-|
D|-------------------------|-0---------------------|
A|-------------------------|-------------3---------|
E|-0-----------------------|-----------------------|

E|---------3---2-----2--|-0-----0-----|-------------0----------|
B|---------3---0-----0--|-0---0---0---|---------0-------0------|
G|-----0-------2-----2--|---0-------0-|-----0------------------|
D|----------------------|-------------|------------------------|
A|-------------2-----2--|-------------|------------------------|
E|-3--------------------|-0-----------|-0------------------3-2-|

Припев: guitar part
                1   2   3   4   5   6
E|-------------|-2-----2-2-2-3---2-0-0-2-|
B|-1-----2-----|-3-----3-3-3-3---3-3-3-3-|
G|-0-----2-----|-2-----2-2-2-2---2-2-2-2-|
D|-2-----2-----|-0-----0-0-0-0---0-0-0-0-|
A|-3-----0-----|-------------------------|
E|-------------|-------------------------|

E|-------------|-2-----2-2-2-3---2-0-0-2-|
B|-1-----2-----|-3-----3-3-3-3---3-3-3-3-|
G|-0-----2-----|-2-----2-2-2-2---2-2-2-2-|
D|-2-----2-----|-0-----0-0-0-0---0-0-0-0-|
A|-3-----0-----|-------------------------|
E|-------------|-------------------------|

E|-------------|-2-----2-2-2-0-|
B|-1-----2-----|-3-----3-3-3-0-|
G|-0-----2-----|-2-----2-2-2-0-|
D|-2-----2-----|-0-----0-0-0-2-|
A|-3-----0-----|-------------2-|
E|-------------|-------------0-|

Interlude, only one part is notated.

E|-12----14---|-15---17---|-8-----8-----|-----8-----|0-----0---|
B|---12----12-|---12---12-|---5-----5---|---5---5---|--1-----1-|
G|------------|-----------|-----5-----5-|-5-------5-|----0-----|
D|------------|-----------|-------------|-----------|----------|
A|------------|-----------|-------------|-----------|----------|
E|------------|-----------|-------------|-----------|----------|

E|-0-------0---|-0-0---------0-0---------|-------0-----|
B|---3-------3-|-----0-----------0-------|-----0---0---|
G|-----2-------|---------0-----------0---|---0-------0-|
D|-------------|-------------------------|-------------|
A|-------------|-------------------------|-------------|
E|-------------|-------------------------|-------------|

Guitar solo :
   E5  E5(VII) | D5(V)  C5(III)
   E5  E5(VII) | D5(V)  C5(III)
   E5  E5(VII) | D5(V)  C5(III) | G5(III)  B5(II) | E5

     B       B  R   V                            V
E|---------------------------|---------------------------------|
B|-15------15----------------|---------------------------------|
G|-14(16)--14(16)14-12----12-|-11-12-11----11---------12-14-12-|
D|---------------------------|----------14----12-14------------|
A|---------------------------|---------------------------------|
E|---------------------------|---------------------------------|
      B        B                           B  R            V
E|-------12-------12------------------|------------------------|
G|----12-------12----15-12----12------|------------14-14-13----|
G|-14(16)---14(16)---------15----15-14|-12(14)12---14-14-13-12-|
D|------------------------------------|---------14-------------|
A|------------------------------------|------------------------|
E|------------------------------------|------------------------|
   S                         Н  P  S              V
E|-/15-14----15-14-17-|-15-14^15^14\12----15-14-|--------------|
B|--------12----------|----------------12-------|-12-----------|
G|--------------------|-------------------------|-----12-14-12-|
D|--------------------|-------------------------|--------------|
A|--------------------|-------------------------|--------------|
E|--------------------|-------------------------|--------------|
     B  R              B                B  R  P     B
E|-------------------------|-12--------------------------|
B|-15-------------------12-|-------15-15(17)15^12-15(17)-|
G|-14(16)14-12----12-14(16)|-----------------------------|
D|-------------14----------|-----------------------------|
A|-------------------------|-----------------------------|
E|-------------------------|-----------------------------|
     Н  P       S     Н P
E|-----------------|--------|
B|-12^15^12\\\\\\7-|-5^7^5--|
G|-----------------|--------|
D|-----------------|--------|
A|-----------------|--------|
E|-----------------|--------|

The end:

E|-0-----0-----|-------0---7-|-7-----------7^0-------|
B|-----0---0---|-----0---0---|-----0-----------0-----|
G|---0-------0-|---0---------|---------0-----------0-|
D|-------------|-------------|-----------------------|
A|-------------|-------------|-----------------------|
E|-0-----------|-0-----------|-0---------------------|

E|---------7---8---7^8^7\5--7---5\2--0-|
B|---------0---0------------0----------|
G|-----0-------------------------------|
D|-------------------------------------|
A|-------------------------------------|
E|-0-----------------------------------|

  Em           D         C
So close no matter how far
Couldn't be much more from the heart
Forever trusting who we are
G   Н7          Em
And nothing else matters

Em             D         C
Never opened my self this way
Life is ours, we live it our way
All these words I don't just say
G   Н7           Em
And nothing else  matters

  Em             D
Trust I seek and find in you
Every day for us something new
Open mind for a different view
G   Н7          Em
And nothing else  matters

{Начало припева}
C A  D                       C
     Never cared for what they do
   A  D                       C
     Never cared for what they know
   A  D       Em
     But I  know
{конец припева}

{Повторить первый куплет}
{припев}
{Повторить первый и второй куплеты}

C A  D                        C
   Never cared for what they say
  A  D                         C
   Never cared for what they play

  A  D                        C
   Never cared for what they do

  A  D                        C
   Never cared for what they know

  A  D        Em
   But I  know

{Повторить первый куплет}

Перевод:

Ничто Больше Не Имеет Значения

Так близко не значит как далеко
Не могло бы быть намного больше от сердца
Вечно доверяя тем, кто мы есть
И ничто больше не имеет значения
Я никогда не открывал себя с этой стороны
Жизнь - наша, и мы проживаем ее по своему
Все эти слова я не просто так говорю
И ничто больше не имеет значения
Доверие, что я ищу, я нахожу в тебе
Каждый день для нас - это что-то новое
Открой свой разум для разный точек зрения
И ничто больше не имеет значения

Важно не то, что они делают
Важно не то, что они знают
А то, что знаю я

Так близко не значит как далеко
Не могло бы быть намного больше от сердца
Вечно доверяя тем, кто мы есть
И ничто больше не имеет значения

Важно не то, что они делают
Важно не то, что они знают
А то, что знаю я

Я никогда не открывал себя с этой стороны
Жизнь - наша, и мы проживаем ее по своему
Все эти слова я говорю не просто так
И ничто больше не имеет значения
Доверие, что я ищу, я нахожу в тебе
Каждый день для нас - это что-то новое
Открой свой разум для разный точек зрения
И ничто больше не имеет значения

Важно не то,, что они говорят
Важно не то, в какие игры они играют
Важно не то, что они делаютВажно не то, что они знают
И я знаю

Так близко не значит как далеко
Не могло бы быть намного больше от сердца
Вечно доверяя тем, кто мы есть
И ничто больше не имеет значения

0

10

Найду аккорды- с вас +....

0

11

Конешно тема хорошая, но я думаю, наврятли она найдет среди присутствующих много друзей =)

0

12

Это мы ещё посмотрим!!!! Сам то Некит великий гитарист!!! ТОолько с утра... :D

0

13

Да, как там.... "А давайте пойдем к Элис...." =)

0

14

-А нам всё равно... а нам... (тук-тук...)
-Никита зае..ал....
-Молчи Катька....

0

15

Да да, и такое было...

0

16

:D гы

0

17

ДА БЫЛО КЛАСНО,И КСТАТЕ У НАС ПОЯВИЛОСЬ ДВА ПЕВЦА

0

18

Один уже был!!!! Зато Димон аккорд новый выучил!!!....пиво в шкафу :)

0

19

Не Димон пЕвец "А я всё чаше замечаю...."

0

20

Но лучшим певцом был Тёма!!!!

0

21

Сообщения типа "реп гавно" и "панки здохли" будут удаляться!


щаз только заметил просто из интереса кем?  :lol:

0

22

Модерами и Админом ....наверно ?

0

23

Возможно но адмидам и модерам даже маты грубые почистить лень а уж про реп свобода слова  "понимаеш ли "+)

0

24

Кстати насчёт модеров. Чё то не видно их работы)) а если хотите выразить своё мнение то создавайте соответствующию тему!!!!

0

25

Не, оскорбление других пользоватилей быстренько убираеться, а вот например в теме про тестик, где нужно писать письмо... убирать маты смасла нет.. так как тест потеряет смысл!!!!

0

26

Я чё то не пойму вы за разведения флуда,а?

0

27

лично я нет

0


Вы здесь » Форум школы №2 » Музыка. » Аккорды для всех!!!!